0
SECTION
2
HEADER
9
$INSUNITS
70
4
9
$ACADVER
1
AC1014
9
$HANDSEED
5
FFFF
0
ENDSEC
0
SECTION
2
TABLES
0
TABLE
2
VPORT
5
8
100
AcDbSymbolTable
0
ENDTAB
0
TABLE
2
LTYPE
5
5
100
AcDbSymbolTable
0
LTYPE
5
14
100
AcDbSymbolTableRecord
100
AcDbLinetypeTableRecord
2
BYBLOCK
70
0
0
LTYPE
5
15
100
AcDbSymbolTableRecord
100
AcDbLinetypeTableRecord
2
BYLAYER
70
0
0
ENDTAB
0
TABLE
2
LAYER
5
2
100
AcDbSymbolTable
70
2
0
LAYER
5
50
100
AcDbSymbolTableRecord
100
AcDbLayerTableRecord
2
0
70
0
6
CONTINUOUS
0
ENDTAB
0
TABLE
2
STYLE
5
3
100
AcDbSymbolTable
70
1
0
STYLE
5
11
100
AcDbSymbolTableRecord
100
AcDbTextStyleTableRecord
2
STANDARD
70
0
0
ENDTAB
0
TABLE
2
VIEW
5
6
100
AcDbSymbolTable
70
0
0
ENDTAB
0
TABLE
2
UCS
5
7
100
AcDbSymbolTable
70
0
0
ENDTAB
0
TABLE
2
APPID
5
9
100
AcDbSymbolTable
70
2
0
APPID
5
12
100
AcDbSymbolTableRecord
100
AcDbRegAppTableRecord
2
ACAD
70
0
0
ENDTAB
0
TABLE
2
DIMSTYLE
5
A
100
AcDbSymbolTable
70
1
0
ENDTAB
0
TABLE
2
BLOCK_RECORD
5
1
100
AcDbSymbolTable
70
1
0
BLOCK_RECORD
5
1F
100
AcDbSymbolTableRecord
100
AcDbBlockTableRecord
2
*MODEL_SPACE
0
BLOCK_RECORD
5
1B
100
AcDbSymbolTableRecord
100
AcDbBlockTableRecord
2
*PAPER_SPACE
0
ENDTAB
0
ENDSEC
0
SECTION
2
BLOCKS
0
BLOCK
5
20
100
AcDbEntity
100
AcDbBlockBegin
2
*MODEL_SPACE
0
ENDBLK
5
21
100
AcDbEntity
100
AcDbBlockEnd
0
BLOCK
5
1C
100
AcDbEntity
100
AcDbBlockBegin
2
*PAPER_SPACE
0
ENDBLK
5
1D
100
AcDbEntity
100
AcDbBlockEnd
0
ENDSEC
0
SECTION
2
ENTITIES
0
ARC
5
100
100
AcDbEntity
8
0
100
AcDbCircle
10
61.670303294694037
20
13.928248229736262
30
0
40
92.000000000000028
210
0
220
0
230
1
100
AcDbArc
50
234.38171133081545
51
306.16548267590696
0
LINE
5
101
100
AcDbEntity
8
0
100
AcDbLine
10
115.96128943172631
20
-60.344821077170508
30
0
11
115.96128943172641
21
-23.852430140693453
31
0
0
CIRCLE
5
102
100
AcDbEntity
8
0
100
AcDbCircle
10
108.60450316423631
20
-61.101285172823708
30
0
40
1.6000000000000014
210
0
220
-0
230
1
0
CIRCLE
5
103
100
AcDbEntity
8
0
100
AcDbCircle
10
98.102789099365495
20
-58.700697165463033
30
0
40
1.6000000000000061
210
0
220
-0
230
1
0
CIRCLE
5
104
100
AcDbEntity
8
0
100
AcDbCircle
10
101.67030329469405
20
-51.071751770263774
30
0
40
5
210
0
220
-0
230
1
0
CIRCLE
5
105
100
AcDbEntity
8
0
100
AcDbCircle
10
61.719427639579727
20
-39.339669252830483
30
0
40
1.6000000000000025
210
0
220
-0
230
1
0
CIRCLE
5
106
100
AcDbEntity
8
0
100
AcDbCircle
10
26.068367639733069
20
-58.780903968360683
30
0
40
1.6000000000000014
210
0
220
-0
230
1
0
CIRCLE
5
107
100
AcDbEntity
8
0
100
AcDbCircle
10
15.447901381756779
20
-61.101285172823708
30
0
40
1.6000000000000014
210
0
220
-0
230
1
0
CIRCLE
5
108
100
AcDbEntity
8
0
100
AcDbCircle
10
21.670303294694051
20
-51.071751770263774
30
0
40
5
210
0
220
-0
230
1
0
LINE
5
109
100
AcDbEntity
8
0
100
AcDbLine
10
8.0911151142666959
20
-23.852430140693453
30
0
11
8.0911151142667759
21
-60.859923254305031
31
0
0
LINE
5
110
100
AcDbEntity
8
0
100
AcDbLine
10
8.0911151142666959
20
-23.852430140693453
30
0
11
10.379317157661525
21
-23.852430140693464
31
0
0
LINE
5
111
100
AcDbEntity
8
0
100
AcDbLine
10
10.379317157661525
20
-18.852430140693464
30
0
11
10.379317157661525
21
-23.852430140693464
31
0
0
LINE
5
112
100
AcDbEntity
8
0
100
AcDbLine
10
10.379317157661525
20
-18.852430140693464
30
0
11
8.0911151142666782
21
-18.852430140693457
31
0
0
LINE
5
113
100
AcDbEntity
8
0
100
AcDbLine
10
8.0911151142666782
20
-18.852430140693457
30
0
11
8.0911151142665716
21
-9.0917517702637021
31
0
0
LINE
5
114
100
AcDbEntity
8
0
100
AcDbLine
10
11.091115114266579
20
-9.0917517702637021
30
0
11
8.0911151142665716
21
-9.0917517702637021
31
0
0
LINE
5
115
100
AcDbEntity
8
0
100
AcDbLine
10
11.091115114266579
20
-9.0917517702637021
30
0
11
11.091115114266579
21
-4.0917517702636985
31
0
0
LINE
5
116
100
AcDbEntity
8
0
100
AcDbLine
10
11.091115114266579
20
-4.0917517702636985
30
0
11
8.0911151142666693
21
-4.0917517702636985
31
0
0
LINE
5
117
100
AcDbEntity
8
0
100
AcDbLine
10
8.0911151142665894
20
46.708926600165917
30
0
11
8.0911151142666693
21
-4.0917517702636985
31
0
0
LINE
5
118
100
AcDbEntity
8
0
100
AcDbLine
10
29.179317157661586
20
-23.852430140693386
30
0
11
29.1793171576616
21
-18.852430140693407
31
0
0
LINE
5
119
100
AcDbEntity
8
0
100
AcDbLine
10
29.179317157661586
20
-23.852430140693386
30
0
11
32.179317157661586
21
-23.852430140693386
31
0
0
LINE
5
120
100
AcDbEntity
8
0
100
AcDbLine
10
32.179317157661586
20
-23.852430140693386
30
0
11
32.1793171576616
21
-18.852430140693407
31
0
0
LINE
5
121
100
AcDbEntity
8
0
100
AcDbLine
10
29.1793171576616
20
-18.852430140693407
30
0
11
32.1793171576616
21
-18.852430140693407
31
0
0
CIRCLE
5
122
100
AcDbEntity
8
0
100
AcDbCircle
10
26.068367639733019
20
-10.699618294902544
30
0
40
1.6000000000000014
210
0
220
-0
230
1
0
LINE
5
123
100
AcDbEntity
8
0
100
AcDbLine
10
32.89111511426664
20
-9.091751770263766
30
0
11
29.89111511426664
21
-9.091751770263766
31
0
0
LINE
5
124
100
AcDbEntity
8
0
100
AcDbLine
10
29.89111511426664
20
-4.0917517702637625
30
0
11
29.89111511426664
21
-9.091751770263766
31
0
0
LINE
5
125
100
AcDbEntity
8
0
100
AcDbLine
10
32.89111511426664
20
-9.091751770263766
30
0
11
32.89111511426664
21
-4.0917517702637625
31
0
0
LINE
5
126
100
AcDbEntity
8
0
100
AcDbLine
10
32.89111511426664
20
-4.0917517702637625
30
0
11
29.89111511426664
21
-4.0917517702637625
31
0
0
CIRCLE
5
127
100
AcDbEntity
8
0
100
AcDbCircle
10
98.102789099365438
20
-10.619411492004897
30
0
40
1.6000000000000014
210
0
220
-0
230
1
0
LINE
5
128
100
AcDbEntity
8
0
100
AcDbLine
10
94.161289431726502
20
-18.852430140693407
30
0
11
91.161289431726487
21
-18.852430140693407
31
0
0
LINE
5
129
100
AcDbEntity
8
0
100
AcDbLine
10
91.161289431726487
20
-18.852430140693407
30
0
11
91.161289431726516
21
-23.852430140693382
31
0
0
LINE
5
130
100
AcDbEntity
8
0
100
AcDbLine
10
94.161289431726516
20
-23.852430140693386
30
0
11
94.161289431726502
21
-18.852430140693407
31
0
0
LINE
5
131
100
AcDbEntity
8
0
100
AcDbLine
10
91.161289431726516
20
-23.852430140693382
30
0
11
94.161289431726516
21
-23.852430140693386
31
0
0
LINE
5
132
100
AcDbEntity
8
0
100
AcDbLine
10
94.169491475121447
20
-9.091751770263766
30
0
11
91.169491475121447
21
-9.091751770263766
31
0
0
LINE
5
133
100
AcDbEntity
8
0
100
AcDbLine
10
94.169491475121447
20
-9.091751770263766
30
0
11
94.169491475121447
21
-4.0917517702637625
31
0
0
LINE
5
134
100
AcDbEntity
8
0
100
AcDbLine
10
91.169491475121447
20
-9.091751770263766
30
0
11
91.169491475121447
21
-4.0917517702637625
31
0
0
LINE
5
135
100
AcDbEntity
8
0
100
AcDbLine
10
91.169491475121447
20
-4.0917517702637625
30
0
11
94.169491475121447
21
-4.0917517702637625
31
0
0
LINE
5
136
100
AcDbEntity
8
0
100
AcDbLine
10
112.96128943172658
20
-23.852430140693464
30
0
11
115.96128943172641
21
-23.852430140693453
31
0
0
LINE
5
137
100
AcDbEntity
8
0
100
AcDbLine
10
112.96128943172658
20
-23.852430140693464
30
0
11
112.96128943172658
21
-18.852430140693464
31
0
0
LINE
5
138
100
AcDbEntity
8
0
100
AcDbLine
10
115.96128943172641
20
-18.852430140693457
30
0
11
112.96128943172658
21
-18.852430140693464
31
0
0
LINE
5
139
100
AcDbEntity
8
0
100
AcDbLine
10
115.96128943172641
20
-18.852430140693457
30
0
11
115.96128943172641
21
-9.0917517702637021
31
0
0
LINE
5
140
100
AcDbEntity
8
0
100
AcDbLine
10
112.96949147512152
20
-9.0917517702637021
30
0
11
115.96128943172641
21
-9.0917517702637021
31
0
0
LINE
5
141
100
AcDbEntity
8
0
100
AcDbLine
10
112.96949147512152
20
-9.0917517702637021
30
0
11
112.96949147512152
21
-4.0917517702636985
31
0
0
LINE
5
142
100
AcDbEntity
8
0
100
AcDbLine
10
115.96128943172644
20
-4.0917517702636985
30
0
11
112.96949147512152
21
-4.0917517702636985
31
0
0
LINE
5
143
100
AcDbEntity
8
0
100
AcDbLine
10
115.96128943172644
20
-4.0917517702636985
30
0
11
115.96128943172651
21
46.708926600165917
31
0
0
CIRCLE
5
144
100
AcDbEntity
8
0
100
AcDbCircle
10
61.670303294694051
20
13.928248229736226
30
0
40
9.9999999999999982
210
0
220
-0
230
1
0
CIRCLE
5
145
100
AcDbEntity
8
0
100
AcDbCircle
10
87.822337044105453
20
20.003519333534921
30
0
40
1.4999999999999991
210
0
220
-0
230
1
0
SPLINE
5
146
100
AcDbEntity
8
0
100
AcDbSpline
70
0
71
3
72
49
73
45
74
0
42
0.000000001
43
0.0000000001
44
0.0000000001
40
-0.20413013278989919
40
-0.20413013278989919
40
-0.20413013278989919
40
-0.20413013278989919
40
-0.18645236672828888
40
-0.1691853606417219
40
-0.15220335406296034
40
-0.13540837880774392
40
-0.11872497373587175
40
-0.10209339302022427
40
-0.08546191570144028
40
-0.077125997580546432
40
-0.06877017816356909
40
-0.06038662736097896
40
-0.051966519403238549
40
-0.04349980999323734
40
-0.039244877684383658
40
-0.034973866767451664
40
-0.030685091675101243
40
-0.026376756891978041
40
-0.022046952969168712
40
-0.017693653113547696
40
-0.015507448821995763
40
-0.01331455552764094
40
-0.011114685744588106
40
-0.0089075442462214407
40
-0.00780114238301637
40
-0.0066928083351777742
40
-0.0055825030109528809
40
-0.0044701868311469465
40
-0.003355819729043892
40
-0.0027978531847703031
40
-0.0022393586627549207
40
-0.001680331017697476
40
-0.0014006155019187425
40
-0.0011207647620228806
40
-0.00084077814630707922
40
-0.00056065500115428399
40
-0.00042054200573477847
40
-0.00028039463200164898
40
-0.00021030802511051366
40
-0.00014021279281129686
40
-7.0108924765835821e-05
40
-3.505374882754357e-05
40
-1.7525349850867913e-05
40
0
40
0
40
0
40
0
10
62.133920080113825
20
29.57565098003618
30
0
10
62.074994211537629
20
29.575697414920814
30
0
10
61.958357961757073
20
29.583574300939173
30
0
10
61.788311855178009
20
29.618429267175532
30
0
10
61.627154704028371
20
29.674540949418159
30
0
10
61.476460076275714
20
29.750311736072153
30
0
10
61.337733843040354
20
29.84416909316197
30
0
10
61.212505228709162
20
29.954542971524081
30
0
10
61.120684220483454
20
30.058993775400449
30
0
10
61.055612449366308
20
30.14909179869802
30
0
10
61.011080401424991
20
30.219896375952882
30
0
10
60.971069548054402
20
30.293667715742689
30
0
10
60.935771752986554
20
30.370214099575055
30
0
10
60.910486675645146
20
30.436053483825614
30
0
10
60.892809374028403
20
30.489875445333841
30
0
10
60.880826844424902
20
30.530884618710079
30
0
10
60.870167716725305
20
30.572440892316255
30
0
10
60.860855996020788
20
30.614520710251494
30
0
10
60.852916048924257
20
30.657099402708372
30
0
10
60.84747055316349
20
30.69292637723704
30
0
10
60.843821945821617
20
30.721805917236953
30
0
10
60.841439402692288
20
30.743607099659425
30
0
10
60.839417867730674
20
30.765514711564997
30
0
10
60.838037773707399
20
30.783841819428712
30
0
10
60.837116804281735
20
30.798552752848725
30
0
10
60.836517614888592
20
30.809620153270405
30
0
10
60.836010935903246
20
30.820711902638436
30
0
10
60.835597144707094
20
30.831827628184865
30
0
10
60.835330165152257
20
30.841106074185713
30
0
10
60.835163340346199
20
30.848540314722914
30
0
10
60.835061620560467
20
30.854124367692435
30
0
10
60.834996457933741
20
30.858781385738201
30
0
10
60.834956094188968
20
30.862509815750965
30
0
10
60.834931711990521
20
30.865308221686057
30
0
10
60.834913214574371
20
30.868108029426775
30
0
10
60.834902769825803
20
30.870442088546977
30
0
10
60.834897263464498
20
30.872310015980826
30
0
10
60.834895293820139
20
30.873477862924812
30
0
10
60.834893908111312
20
30.87441224090453
30
0
10
60.834894743795971
20
30.875113352832475
30
0
10
60.834890959895418
20
30.875697034243341
30
0
10
60.834897871686096
20
30.87610688421135
30
0
10
60.834887191616289
20
30.876339151568697
30
0
10
60.83490942580319
20
30.876458923297943
30
0
10
60.83489421239598
20
30.876515325385103
30
0
0
SPLINE
5
147
100
AcDbEntity
8
0
100
AcDbSpline
70
0
71
3
72
49
73
45
74
0
42
0.000000001
43
0.0000000001
44
0.0000000001
40
-0.20414316079494813
40
-0.20414316079494813
40
-0.20414316079494813
40
-0.20414316079494813
40
-0.18646546285609836
40
-0.16919851331517127
40
-0.1522163973267415
40
-0.13542103863853944
40
-0.1187369142252598
40
-0.10210425932136892
40
-0.085471372161812761
40
-0.077134638319710014
40
-0.068777941148135388
40
-0.060393461209013649
40
-0.051972384692202833
40
-0.043504680352195166
40
-0.039249245069064582
40
-0.034977729854393555
40
-0.030688450968031345
40
-0.026379614740632055
40
-0.022049313578308104
40
-0.017695522541896744
40
-0.015509075515580799
40
-0.013315941690312414
40
-0.011115833806861037
40
-0.0089084568633094052
40
-0.0078019383434811988
40
-0.0066934883859084528
40
-0.0055830679262137035
40
-0.0044706374123081793
40
-0.0033561568044539673
40
-0.0027981338263546761
40
-0.0022395830876274841
40
-0.00168049944622803
40
-0.0014007560159813367
40
-0.0011208774179425859
40
-0.00084086300080638628
40
-0.00056071211139301525
40
-0.00042058526542072068
40
-0.00028042405554274188
40
-0.0002103305360360878
40
-0.00014022839471175425
40
-7.0117621318305649e-05
40
-3.5058994056324751e-05
40
-1.7528869758976194e-05
40
0
40
0
40
0
40
0
10
63.434784425462638
20
30.874818269110254
30
0
10
63.434749599428741
20
30.815892619605503
30
0
10
63.426893228411316
20
30.699255137197426
30
0
10
63.392061022825175
20
30.529204124814573
30
0
10
63.335964571676087
20
30.36803986508394
30
0
10
63.260202342387473
20
30.217336202579244
30
0
10
63.166347709770037
20
30.078599207760295
30
0
10
63.05597152543136
20
29.953358288959578
30
0
10
62.951515713597459
20
29.861526284540769
30
0
10
62.861411863147794
20
29.796444918436062
30
0
10
62.790601798430501
20
29.751905177494052
30
0
10
62.716824245599483
20
29.711886382585657
30
0
10
62.640271013049116
20
29.676580425529284
30
0
10
62.574425494796131
20
29.65128840392131
30
0
10
62.520598364143183
20
29.633605455875852
30
0
10
62.479585194932454
20
29.621618646041036
30
0
10
62.438024833574488
20
29.610955206692662
30
0
10
62.395940847451641
20
29.601639146741917
30
0
10
62.35335791774574
20
29.593694836639717
30
0
10
62.317527347944477
20
29.588245690353617
30
0
10
62.288644903984434
20
29.584594155927434
30
0
10
62.26684154333789
20
29.582209412490865
30
0
10
62.244931744544445
20
29.58018567429713
30
0
10
62.226602802261581
20
29.578803743188168
30
0
10
62.211890397875038
20
29.577881303392296
30
0
10
62.200821896572407
20
29.577281010137053
30
0
10
62.189729045240156
20
29.57677322692566
30
0
10
62.178612216827318
20
29.57635833119971
30
0
10
62.169332849386123
20
29.576090431364701
30
0
10
62.161897871362797
20
29.575922870285982
30
0
10
62.156313266235017
20
29.575820598028653
30
0
10
62.151655787515594
20
29.575754975085697
30
0
10
62.147926988922535
20
29.575714243082004
30
0
10
62.145128306817483
20
29.575689584621845
30
0
10
62.142328222896239
20
29.57567081094103
30
0
10
62.139993933495319
20
29.575660135993989
30
0
10
62.138125821841115
20
29.575654445479863
30
0
10
62.136957859769524
20
29.575652360719022
30
0
10
62.136023389730681
20
29.57565088294826
30
0
10
62.135322208656589
20
29.575651649497114
30
0
10
62.134738469997544
20
29.575647808255692
30
0
10
62.134328579204876
20
29.575654679376857
30
0
10
62.134096283744498
20
29.57564397662475
30
0
10
62.13397649242367
20
29.575666200596888
30
0
10
62.133920080113825
20
29.57565098003618
30
0
0
SPLINE
5
148
100
AcDbEntity
8
0
100
AcDbSpline
70
0
71
3
72
8
73
4
74
0
42
0.000000001
43
0.0000000001
44
0.0000000001
40
-0.20000000000000001
40
-0.20000000000000001
40
-0.20000000000000001
40
-0.20000000000000001
40
0
40
0
40
0
40
0
10
62.135687847066734
20
32.175611903781068
30
0
10
62.853542651327317
20
32.175187639712284
30
0
10
63.435208689531422
20
31.592955916083312
30
0
10
63.434784425462638
20
30.874818269110254
30
0
0
SPLINE
5
149
100
AcDbEntity
8
0
100
AcDbSpline
70
0
71
3
72
49
73
45
74
0
42
0.000000001
43
0.0000000001
44
0.0000000001
40
0
40
0
40
0
40
0
40
1.7525349991329127e-05
40
3.5053749394694145e-05
40
7.0108927014898343e-05
40
0.00014021280179131945
40
0.00021030804530728213
40
0.00028039466786886725
40
0.00042054208633349877
40
0.00056065514421664553
40
0.0008407784672093343
40
0.0011207653307147947
40
0.0014006163877030339
40
0.0016803322891602644
40
0.0022393609088435774
40
0.0027978566718990122
40
0.0033558247183303235
40
0.0044701955874647172
40
0.0055825165155053815
40
0.006692827527502181
40
0.0078011681614501465
40
0.0089075774683063762
40
0.011114736270378092
40
0.013314626309799644
40
0.015507542504442594
40
0.017693772039800187
40
0.022047128286582868
40
0.026376994592543883
40
0.030685395684994263
40
0.034974239112969534
40
0.039245318666486367
40
0.043500318369558262
40
0.051967153672260097
40
0.060387368774780563
40
0.068771002720496036
40
0.07712687934699386
40
0.085462830182636243
40
0.10209431939683802
40
0.11872591468606185
40
0.13540946894960348
40
0.15220490977204662
40
0.16918792413432138
40
0.18645674032841544
40
0.20413739832478692
40
0.20413739832478692
40
0.20413739832478692
40
0.20413739832478692
10
62.135687847066734
20
32.175611903781068
30
0
10
62.13563144461979
20
32.175596691705842
30
0
10
62.135511673410093
20
32.175618923960172
30
0
10
62.135279405790769
20
32.17560824484022
30
0
10
62.134869555952079
20
32.175615156061575
30
0
10
62.134285874386919
20
32.175611372547095
30
0
10
62.133584762375236
20
32.175612208238256
30
0
10
62.132650384147254
20
32.175610822773464
30
0
10
62.13148253679762
20
32.175608853485301
30
0
10
62.12961460840944
20
32.175603347965811
30
0
10
62.127280547657051
20
32.175592904701354
30
0
10
62.12448073742415
20
32.175574409780168
30
0
10
62.121682328293204
20
32.175550030780443
30
0
10
62.117953892633153
20
32.175509672228209
30
0
10
62.113296865803775
20
32.175444517827898
30
0
10
62.107712800213335
20
32.17534281068383
30
0
10
62.100278537515621
20
32.175176006321784
30
0
10
62.091000057209911
20
32.174909059020969
30
0
10
62.079884282481075
20
32.174495317174923
30
0
10
62.068792473618757
20
32.173988697853673
30
0
10
62.057725003632456
20
32.173389578199235
30
0
10
62.04301395898149
20
32.172468714436533
30
0
10
62.024686689163175
20
32.171088776250912
30
0
10
62.002778854396396
20
32.169067465565931
30
0
10
61.980977414563299
20
32.166685181301247
30
0
10
61.952097474768735
20
32.163036960349849
30
0
10
61.916269931124148
20
32.157592024115552
30
0
10
61.873690466439513
20
32.149652860567997
30
0
10
61.831609783321611
20
32.140342016066342
30
0
10
61.790052566801847
20
32.129683841745596
30
0
10
61.749042388083311
20
32.11770232728761
30
0
10
61.695219042836626
20
32.100026443859562
30
0
10
61.629377873188318
20
32.074743231020342
30
0
10
61.552829299988545
20
32.039447664953194
30
0
10
61.479055877458961
20
31.999438912585816
30
0
10
61.408249446654182
20
31.954908709994506
30
0
10
61.31814952765275
20
31.889838965765918
30
0
10
61.213697312634849
20
31.798019068281398
30
0
10
61.10332450081394
20
31.672788456004962
30
0
10
61.00947216858529
20
31.534055972493753
30
0
10
60.933711482321016
20
31.383349873258879
30
0
10
60.877616094757983
20
31.22217511393022
30
0
10
60.842784702471917
20
31.052104429792262
30
0
10
60.834929037400727
20
30.93545084175064
30
0
10
60.83489421239598
20
30.876515325385103
30
0
0
CIRCLE
5
150
100
AcDbEntity
8
0
100
AcDbCircle
10
35.51894092462269
20
20.001750404127307
30
0
40
1.4999999999999991
210
0
220
-0
230
1
0
LINE
5
151
100
AcDbEntity
8
0
100
AcDbLine
10
50.610483709829097
20
34.302659812268281
30
0
11
73.610475270805722
21
34.28844696596645
31
0
0
LINE
5
152
100
AcDbEntity
8
0
100
AcDbLine
10
73.617829181330094
20
46.488443104490401
30
0
11
73.610475270805722
21
34.28844696596645
31
0
0
LINE
5
153
100
AcDbEntity
8
0
100
AcDbLine
10
50.617766909675339
20
46.502726661470327
30
0
11
50.610483709829097
21
34.302659812268281
31
0
0
LINE
5
154
100
AcDbEntity
8
0
100
AcDbLine
10
73.617829181330094
20
46.488443104490401
30
0
11
50.617766909675339
21
46.502726661470327
31
0
0
LINE
5
155
100
AcDbEntity
8
0
100
AcDbLine
10
94.161289431726487
20
46.708926600165853
30
0
11
91.161289431726516
21
46.708926600165853
31
0
0
LINE
5
156
100
AcDbEntity
8
0
100
AcDbLine
10
94.161289431726487
20
46.708926600165853
30
0
11
94.161289431726516
21
51.708926600165839
31
0
0
LINE
5
157
100
AcDbEntity
8
0
100
AcDbLine
10
91.161289431726516
20
46.708926600165853
30
0
11
91.161289431726516
21
51.708926600165839
31
0
0
LINE
5
158
100
AcDbEntity
8
0
100
AcDbLine
10
91.161289431726516
20
51.708926600165839
30
0
11
94.161289431726516
21
51.708926600165839
31
0
0
LINE
5
159
100
AcDbEntity
8
0
100
AcDbLine
10
112.96128943172658
20
51.708926600165917
30
0
11
112.96128943172658
21
46.708926600165917
31
0
0
LINE
5
160
100
AcDbEntity
8
0
100
AcDbLine
10
115.96128943172651
20
46.708926600165917
30
0
11
112.96128943172658
21
46.708926600165917
31
0
0
LINE
5
161
100
AcDbEntity
8
0
100
AcDbLine
10
115.96128943172651
20
51.708926600165917
30
0
11
112.96128943172658
21
51.708926600165917
31
0
0
LINE
5
162
100
AcDbEntity
8
0
100
AcDbLine
10
115.96128943172653
20
88.201317536642776
30
0
11
115.96128943172651
21
51.70892660016591
31
0
0
SPLINE
5
163
100
AcDbEntity
8
0
100
AcDbSpline
70
0
71
3
72
64
73
60
74
0
42
0.000000001
43
0.0000000001
44
0.0000000001
40
-0.20415722999416769
40
-0.20415722999416769
40
-0.20415722999416769
40
-0.20415722999416769
40
-0.1864780762648991
40
-0.16921026251438981
40
-0.15222778892816416
40
-0.13543247736025721
40
-0.11874869972802073
40
-0.11042529833051272
40
-0.1021081702510938
40
-0.093791016545111183
40
-0.085467537738544624
40
-0.077131178355779192
40
-0.068774874422477886
40
-0.060390807114737585
40
-0.051970166106792393
40
-0.047742484532478778
40
-0.043501787757056022
40
-0.039246599123657112
40
-0.034975341801267906
40
-0.030686333761542249
40
-0.02637778324772316
40
-0.024215513131110318
40
-0.022047633337542175
40
-0.019873887352751599
40
-0.017694011160784198
40
-0.015507733170835428
40
-0.013314774154498887
40
-0.011114847193282564
40
-0.0100121691741148
40
-0.0089076380449809658
40
-0.0078012157617334535
40
-0.0066928637937965904
40
-0.0055825431237060312
40
-0.0044702142469778975
40
-0.0039132830130564171
40
-0.0033558346912155711
40
-0.0027978642064389802
40
-0.0022393664533162773
40
-0.0019599180917520944
40
-0.0016803359847199345
40
-0.001400619485483675
40
-0.0011207679454173641
40
-0.00084078071401519968
40
-0.00070073599074552476
40
-0.00056065709983756258
40
-0.00042054395943924247
40
-0.00035047451763662929
40
-0.00028039648270845348
40
-0.00021030984439186003
40
-0.00014021459241533911
40
-0.00010516373279741363
40
-7.0110715903671012e-05
40
-5.2583398046759387e-05
40
-3.5055540384535786e-05
40
-1.7527142763535575e-05
40
-8.7627414018407536e-06
40
-4.3804900950597616e-06
40
-1.0937794383845421e-06
40
0
40
0
40
0
40
0
10
63.413783354061408
20
49.874989611627072
30
0
10
63.413742724347202
20
49.816059113202265
30
0
10
63.405875902159536
20
49.699414551811998
30
0
10
63.371031165288016
20
49.52935778184127
30
0
10
63.314922649933507
20
49.368190822944094
30
0
10
63.239159712830499
20
49.217499016546604
30
0
10
63.1608421633576
20
49.10174662465014
30
0
10
63.090041816871221
20
49.01607332775108
30
0
10
63.033036894684642
20
48.955400555169284
30
0
10
62.972293973101188
20
48.8984751070765
30
0
10
62.908003686539971
20
48.845486012354442
30
0
10
62.840359583781051
20
48.796627628038607
30
0
10
62.76955359195874
20
48.752092993840606
30
0
10
62.695780599918081
20
48.712076870114984
30
0
10
62.632067777192404
20
48.682693295830077
30
0
10
62.579845710750206
20
48.661643228253837
30
0
10
62.54000294773725
20
48.647082947492635
30
0
10
62.499564756490642
20
48.633797211147147
30
0
10
62.458554724235356
20
48.621809965490499
30
0
10
62.416997502483653
20
48.611145579737922
30
0
10
62.381972429386892
20
48.603390457947668
30
0
10
62.353709653873111
20
48.597870577000464
30
0
10
62.332364437403314
20
48.594071217115378
30
0
10
62.310900685316355
20
48.590620641164655
30
0
10
62.289321349757003
20
48.587521854748807
30
0
10
62.267629467746417
20
48.584777887859403
30
0
10
62.245828101303644
20
48.58239176725629
30
0
10
62.22758638970312
20
48.58070543178151
30
0
10
62.212942260208948
20
48.579537926550316
30
0
10
62.201924615506528
20
48.57875291651699
30
0
10
62.190881876818125
20
48.578059628101364
30
0
10
62.179814410782157
20
48.577458438105872
30
0
10
62.168722603686675
20
48.576949724965459
30
0
10
62.159463691589352
20
48.57660333475188
30
0
10
62.152044893890661
20
48.576372777900865
30
0
10
62.146472385149636
20
48.576223135397605
30
0
10
62.140894075607562
20
48.576096894973162
30
0
10
62.136241793294644
20
48.576011256014979
30
0
10
62.132517129595186
20
48.575954484915336
30
0
10
62.129721545190719
20
48.575917776432682
30
0
10
62.126924545797735
20
48.575886953851786
30
0
10
62.124126137248581
20
48.575862023068765
30
0
10
62.121793244269341
20
48.575846164114651
30
0
10
62.119926233245124
20
48.57583642765821
30
0
10
62.11852545583632
20
48.57583060115001
30
0
10
62.117357923228766
20
48.575826976826946
30
0
10
62.116423723133991
20
48.575824816894446
30
0
10
62.115722945359195
20
48.575823564816432
30
0
10
62.115022073731225
20
48.575822688751842
30
0
10
62.114437982530717
20
48.575822247254443
30
0
10
62.11397061573841
20
48.57582212294961
30
0
10
62.113678604360771
20
48.575822022227975
30
0
10
62.113444720287276
20
48.57582221716055
30
0
10
62.113270022530784
20
48.575821758719187
30
0
10
62.113122136385144
20
48.575823393065107
30
0
10
62.113023130500196
20
48.575820627854966
30
0
10
62.112963479278989
20
48.575824886616637
30
0
10
62.11294325778816
20
48.575817103660135
30
0
10
62.11291849309994
20
48.575825931840981
30
0
10
62.112919008712524
20
48.575822322552966
30
0
0
SPLINE
5
164
100
AcDbEntity
8
0
100
AcDbSpline
70
0
71
3
72
49
73
45
74
0
42
0.000000001
43
0.0000000001
44
0.0000000001
40
0
40
0
40
0
40
0
40
1.7527074675382079e-05
40
3.5057199051509636e-05
40
7.011582647515218e-05
40
0.00014022660021846206
40
0.00021032874185810912
40
0.00028042226167434561
40
0.00042058347206993288
40
0.00056071031840949394
40
0.0008408612077998093
40
0.0011208756234849383
40
0.0014007542181419105
40
0.0016804976425807685
40
0.0022395812631908281
40
0.0027981319654713228
40
0.0033561548875544862
40
0.0044706353104840358
40
0.0055830655156418061
40
0.0066934855133499701
40
0.0078019348270433816
40
0.0089084524932836664
40
0.011115827001833344
40
0.013315931297065918
40
0.015509060187078224
40
0.017695500750160742
40
0.022049273677664495
40
0.026379548769073124
40
0.030688349984095843
40
0.034977584143372896
40
0.039249044346517083
40
0.043504413963560279
40
0.051971954753508284
40
0.060392825356240312
40
0.068777060660520903
40
0.077133480683738653
40
0.085469913366947634
40
0.10210216985419436
40
0.11873424446034005
40
0.1354179599479452
40
0.15221320939643676
40
0.16919563994495765
40
0.1864634350662995
40
0.20414258668990248
40
0.20414258668990248
40
0.20414258668990248
40
0.20414258668990248
10
60.81382243031662
20
49.876757378580088
30
0
10
60.813837646533884
20
49.876700971296017
30
0
10
60.813815428124727
20
49.876581187250117
30
0
10
60.813826129113195
20
49.876348897269445
30
0
10
60.813819258864186
20
49.875939006765933
30
0
10
60.81382309946612
20
49.875355267941117
30
0
10
60.813822332843444
20
49.874654086915776
30
0
10
60.8138238101224
20
49.873719616855539
30
0
10
60.813825894138134
20
49.87255165478679
30
0
10
60.813831582930717
20
49.870683543121572
30
0
10
60.813842254850599
20
49.868349253712836
30
0
10
60.813861023467055
20
49.865549169774361
30
0
10
60.813885675444581
20
49.862750487648917
30
0
10
60.813926396919555
20
49.859021689041789
30
0
10
60.813992003178114
20
49.854364210304603
30
0
10
60.814094249804995
20
49.848779605093156
30
0
10
60.814261769304068
20
49.84134462706632
30
0
10
60.814529603350849
20
49.832065259615703
30
0
10
60.814944398281696
20
49.820948430689356
30
0
10
60.815452059176849
20
49.809855578539484
30
0
10
60.816052208894931
20
49.79878707605679
30
0
10
60.816974429502366
20
49.784074671128025
30
0
10
60.818356035045085
20
49.765745727713053
30
0
10
60.820379302303067
20
49.743835922544086
30
0
10
60.822763497078896
20
49.722032552608511
30
0
10
60.826414199346672
20
49.693150103064632
30
0
10
60.831862121840032
20
49.65731952088742
30
0
10
60.839804691317525
20
49.614736537955935
30
0
10
60.849118757248633
20
49.572652474544974
30
0
10
60.859779968533516
20
49.531092007864075
30
0
10
60.871764335474055
20
49.490078701601838
30
0
10
60.889443749402332
20
49.436251409838832
30
0
10
60.914730898805658
20
49.370405587819555
30
0
10
60.950030494866922
20
49.293851686944343
30
0
10
60.990042538591283
20
49.220073240295008
30
0
10
61.034575293759659
20
49.149262027501983
30
0
10
61.099647207251593
20
49.059156325510855
30
0
10
61.191467771359171
20
48.954697161097371
30
0
10
61.316696662804233
20
48.844315451929141
30
0
10
61.45542445134943
20
48.750453688220439
30
0
10
61.606122886571271
20
48.674682527511486
30
0
10
61.76728702484148
20
48.618575115117082
30
0
10
61.937344159225916
20
48.583729647430516
30
0
10
62.053988517306635
20
48.575862952262518
30
0
10
62.112919008712524
20
48.57582232255308
30
0
0
SPLINE
5
165
100
AcDbEntity
8
0
100
AcDbSpline
70
0
71
3
72
49
73
45
74
0
42
0.000000001
43
0.0000000001
44
0.0000000001
40
-0.20413374581696966
40
-0.20413374581696966
40
-0.20413374581696966
40
-0.20413374581696966
40
-0.18645632509309051
40
-0.16919012886114948
40
-0.15220911017437627
40
-0.13541505290025288
40
-0.11873229769561555
40
-0.10210095658687696
40
-0.085469225631190221
40
-0.077132986481419419
40
-0.068776719508332834
40
-0.060392601402944897
40
-0.051971816992701272
40
-0.043504336342845486
40
-0.039248988594802928
40
-0.034977545600862636
40
-0.030688324593243398
40
-0.026379533061270586
40
-0.022049264756505642
40
-0.017695496271253545
40
-0.015509057217587141
40
-0.013315929446911038
40
-0.011115825942783273
40
-0.008908451957035662
40
-0.0078019344698780609
40
-0.0066934852897333535
40
-0.0055830653869907571
40
-0.0044706352450151251
40
-0.0033561548600928482
40
-0.0027981319496385108
40
-0.0022395812551029254
40
-0.0016804976391731905
40
-0.0014007542161713535
40
-0.0011208756224711288
40
-0.00084086120738366367
40
-0.00056071031828639536
40
-0.00042058347201206494
40
-0.00028042226165015164
40
-0.00021032874184930244
40
-0.00014022660021500259
40
-7.0115826475462194e-05
40
-3.5057199049936818e-05
40
-1.7527074675697073e-05
40
0
40
0
40
0
40
0
10
60.81382243031662
20
49.876757378580088
30
0
10
60.813857255804464
20
49.935682104035131
30
0
10
60.821713280617828
20
50.052316178664078
30
0
10
60.856545333442114
20
50.222360053906847
30
0
10
60.912641840812469
20
50.383513263275859
30
0
10
60.988404306842838
20
50.534202852554628
30
0
10
61.082259299139139
20
50.672923663970586
30
0
10
61.192635894457013
20
50.798147235609846
30
0
10
61.297091678450002
20
50.889964318308643
30
0
10
61.387195275668418
20
50.955034178384295
30
0
10
61.45800537082728
20
50.999565805835445
30
0
10
61.531782941907167
20
51.039576968951046
30
0
10
61.608336179694874
20
51.074875901583674
30
0
10
61.674181557999006
20
51.100162637823914
30
0
10
61.728008581364051
20
51.11784180820294
30
0
10
61.76902174681679
20
51.129826035500301
30
0
10
61.810582103372695
20
51.140487138052642
30
0
10
61.8526660835294
20
51.149801122307522
30
0
10
61.895249006275819
20
51.15774363333113
30
0
10
61.931079550397143
20
51.163191522702874
30
0
10
61.959961978487215
20
51.16684220660165
30
0
10
61.981765338046912
20
51.169226391246255
30
0
10
62.003675135726652
20
51.171249651262443
30
0
10
62.022004074446855
20
51.1726312527448
30
0
10
62.036716476726141
20
51.173553471088397
30
0
10
62.047784977915441
20
51.174153619544143
30
0
10
62.058877829132584
20
51.174661279537403
30
0
10
62.069994657426193
20
51.175076073866705
30
0
10
62.079274024508919
20
51.175343907611612
30
0
10
62.08670900234786
20
51.175511426959623
30
0
10
62.092293607480329
20
51.175613673511506
30
0
10
62.096951086171757
20
51.17567927973262
30
0
10
62.100679884755507
20
51.175720001188658
30
0
10
62.103478566871146
20
51.175744653156912
30
0
10
62.106278650803475
20
51.175763421767435
30
0
10
62.108612940208943
20
51.175774093685611
30
0
10
62.110481051872952
20
51.175779782476383
30
0
10
62.111649013940919
20
51.175781866493715
30
0
10
62.112583484002002
20
51.175783343768643
30
0
10
62.113284665023869
20
51.17578257715806
30
0
10
62.113868403859058
20
51.175786417721767
30
0
10
62.114278294344203
20
51.175779547540614
30
0
10
62.114510584354079
20
51.175790248420654
30
0
10
62.114630368340116
20
51.175768030233897
30
0
10
62.114686775665504
20
51.17578324629784
30
0
0
SPLINE
5
166
100
AcDbEntity
8
0
100
AcDbSpline
70
0
71
3
72
8
73
4
74
0
42
0.000000001
43
0.0000000001
44
0.0000000001
40
-0.20000000000000001
40
-0.20000000000000001
40
-0.20000000000000001
40
-0.20000000000000001
40
0
40
0
40
0
40
0
10
62.114686775665504
20
51.17578324629784
30
0
10
62.832541579926087
20
51.175358982229113
30
0
10
63.414207618130121
20
50.592985837243951
30
0
10
63.413783354061408
20
49.874989611627072
30
0
0
CIRCLE
5
167
100
AcDbEntity
8
0
100
AcDbCircle
10
61.670446005753163
20
57.49551246685121
30
0
40
1.5000000000000004
210
0
220
-0
230
1
0
LINE
5
168
100
AcDbEntity
8
0
100
AcDbLine
10
32.1793171576616
20
46.708926600165853
30
0
11
29.179317157661622
21
46.708926600165853
31
0
0
LINE
5
169
100
AcDbEntity
8
0
100
AcDbLine
10
32.179317157661586
20
51.708926600165839
30
0
11
32.1793171576616
21
46.708926600165853
31
0
0
LINE
5
170
100
AcDbEntity
8
0
100
AcDbLine
10
29.179317157661622
20
46.708926600165853
30
0
11
29.179317157661586
21
51.708926600165839
31
0
0
LINE
5
171
100
AcDbEntity
8
0
100
AcDbLine
10
32.179317157661586
20
51.708926600165839
30
0
11
29.179317157661586
21
51.708926600165839
31
0
0
LINE
5
172
100
AcDbEntity
8
0
100
AcDbLine
10
10.379317157661525
20
46.708926600165917
30
0
11
8.0911151142665894
21
46.708926600165917
31
0
0
LINE
5
173
100
AcDbEntity
8
0
100
AcDbLine
10
10.379317157661525
20
46.708926600165917
30
0
11
10.379317157661525
21
51.708926600165917
31
0
0
LINE
5
174
100
AcDbEntity
8
0
100
AcDbLine
10
10.379317157661525
20
51.708926600165917
30
0
11
8.0911151142665805
21
51.708926600165917
31
0
0
LINE
5
175
100
AcDbEntity
8
0
100
AcDbLine
10
8.0911151142665272
20
88.716419713777299
30
0
11
8.0911151142665805
21
51.70892660016591
31
0
0
CIRCLE
5
176
100
AcDbEntity
8
0
100
AcDbCircle
10
101.67030329469405
20
78.928248229736226
30
0
40
5
210
0
220
-0
230
1
0
CIRCLE
5
177
100
AcDbEntity
8
0
100
AcDbCircle
10
21.670303294694051
20
78.928248229736226
30
0
40
5
210
0
220
-0
230
1
0
CIRCLE
5
178
100
AcDbEntity
8
0
100
AcDbCircle
10
15.447901381756779
20
88.957781632296161
30
0
40
1.6000000000000014
210
0
220
-0
230
1
0
CIRCLE
5
179
100
AcDbEntity
8
0
100
AcDbCircle
10
108.60450316423631
20
88.957781632296161
30
0
40
1.6000000000000014
210
0
220
-0
230
1
0
ARC
5
180
100
AcDbEntity
8
0
100
AcDbCircle
10
61.670303294694037
20
13.928248229736226
30
0
40
92.000000000000043
210
0
220
-0
230
1
100
AcDbArc
50
53.834517324092772
51
125.61828866918471
0
CIRCLE
5
181
100
AcDbEntity
8
0
100
AcDbCircle
10
61.672603991731556
20
67.196165712272048
30
0
40
1.5999999999999994
210
0
220
-0
230
1
0
ENDSEC
0
SECTION
2
OBJECTS
0
DICTIONARY
5
C
100
AcDbDictionary
3
ACAD_GROUP
350
D
3
ACAD_MLINESTYLE
350
17
0
DICTIONARY
5
D
100
AcDbDictionary
0
DICTIONARY
5
1A
330
C
100
AcDbDictionary
0
DICTIONARY
5
17
100
AcDbDictionary
0
ENDSEC
0
EOF
