0
SECTION
2
HEADER
9
$INSUNITS
70
4
9
$ACADVER
1
AC1014
9
$HANDSEED
5
FFFF
0
ENDSEC
0
SECTION
2
TABLES
0
TABLE
2
VPORT
5
8
100
AcDbSymbolTable
0
ENDTAB
0
TABLE
2
LTYPE
5
5
100
AcDbSymbolTable
0
LTYPE
5
14
100
AcDbSymbolTableRecord
100
AcDbLinetypeTableRecord
2
BYBLOCK
70
0
0
LTYPE
5
15
100
AcDbSymbolTableRecord
100
AcDbLinetypeTableRecord
2
BYLAYER
70
0
0
ENDTAB
0
TABLE
2
LAYER
5
2
100
AcDbSymbolTable
70
2
0
LAYER
5
50
100
AcDbSymbolTableRecord
100
AcDbLayerTableRecord
2
0
70
0
6
CONTINUOUS
0
ENDTAB
0
TABLE
2
STYLE
5
3
100
AcDbSymbolTable
70
1
0
STYLE
5
11
100
AcDbSymbolTableRecord
100
AcDbTextStyleTableRecord
2
STANDARD
70
0
0
ENDTAB
0
TABLE
2
VIEW
5
6
100
AcDbSymbolTable
70
0
0
ENDTAB
0
TABLE
2
UCS
5
7
100
AcDbSymbolTable
70
0
0
ENDTAB
0
TABLE
2
APPID
5
9
100
AcDbSymbolTable
70
2
0
APPID
5
12
100
AcDbSymbolTableRecord
100
AcDbRegAppTableRecord
2
ACAD
70
0
0
ENDTAB
0
TABLE
2
DIMSTYLE
5
A
100
AcDbSymbolTable
70
1
0
ENDTAB
0
TABLE
2
BLOCK_RECORD
5
1
100
AcDbSymbolTable
70
1
0
BLOCK_RECORD
5
1F
100
AcDbSymbolTableRecord
100
AcDbBlockTableRecord
2
*MODEL_SPACE
0
BLOCK_RECORD
5
1B
100
AcDbSymbolTableRecord
100
AcDbBlockTableRecord
2
*PAPER_SPACE
0
ENDTAB
0
ENDSEC
0
SECTION
2
BLOCKS
0
BLOCK
5
20
100
AcDbEntity
100
AcDbBlockBegin
2
*MODEL_SPACE
0
ENDBLK
5
21
100
AcDbEntity
100
AcDbBlockEnd
0
BLOCK
5
1C
100
AcDbEntity
100
AcDbBlockBegin
2
*PAPER_SPACE
0
ENDBLK
5
1D
100
AcDbEntity
100
AcDbBlockEnd
0
ENDSEC
0
SECTION
2
ENTITIES
0
LINE
5
100
100
AcDbEntity
8
0
100
AcDbLine
10
-48.364263760313797
20
-13.301463595868327
30
0
11
-45.864263760313797
21
-13.301463595868327
31
0
0
LINE
5
101
100
AcDbEntity
8
0
100
AcDbLine
10
-45.864263760313797
20
-13.301463595868327
30
0
11
-45.864263760313797
21
-15.301463595868327
31
0
0
SPLINE
5
102
100
AcDbEntity
8
0
100
AcDbSpline
70
0
71
3
72
16
73
12
74
0
42
0.000000001
43
0.0000000001
44
0.0000000001
40
0
40
0
40
0
40
0
40
0.062618682589166655
40
0.062618682589166655
40
0.10811371160393383
40
0.10811371160393383
40
0.1488029204276807
40
0.1488029204276807
40
0.19502787699484128
40
0.19502787699484128
40
0.2484135892746103
40
0.2484135892746103
40
0.2484135892746103
40
0.2484135892746103
10
-44.864263760313818
20
-16.301463595868327
30
0
10
-45.072992702277688
20
-16.301463595868327
30
0
10
-45.237036932653922
20
-16.283038778232118
30
0
10
-45.461594745209617
20
-16.217319079232063
30
0
10
-45.539231147573254
20
-16.178989085571235
30
0
10
-45.659789558026887
20
-16.083830310522906
30
0
10
-45.70492108573437
20
-16.02981770716422
30
0
10
-45.781249287729786
20
-15.895191722955243
30
0
10
-45.811262886370898
20
-15.809286308159511
30
0
10
-45.855021465804164
20
-15.586355295824836
30
0
10
-45.864263760313797
20
-15.450433665202183
30
0
10
-45.864263760313797
20
-15.301463595868327
30
0
0
LINE
5
103
100
AcDbEntity
8
0
100
AcDbLine
10
-44.864263760313818
20
-16.301463595868327
30
0
11
-41.86426376031379
21
-16.301463595868327
31
0
0
SPLINE
5
104
100
AcDbEntity
8
0
100
AcDbSpline
70
0
71
3
72
16
73
12
74
0
42
0.000000001
43
0.0000000001
44
0.0000000001
40
0
40
0
40
0
40
0
40
0.062618682589558966
40
0.062618682589558966
40
0.1081137116043705
40
0.1081137116043705
40
0.14880292042769658
40
0.14880292042769658
40
0.19502787699600535
40
0.19502787699600535
40
0.24841358927842003
40
0.24841358927842003
40
0.24841358927842003
40
0.24841358927842003
10
-40.864263760313797
20
-15.301463595868327
30
0
10
-40.864263760313797
20
-15.510192537833527
30
0
10
-40.882688577950226
20
-15.674236768209276
30
0
10
-40.948408276949735
20
-15.898794580763063
30
0
10
-40.986738270610317
20
-15.976430983127061
30
0
10
-41.081897045659225
20
-16.096989393581438
30
0
10
-41.135909649017954
20
-16.142120921288921
30
0
10
-41.270535633229372
20
-16.218449123285723
30
0
10
-41.356441048026241
20
-16.248462721926163
30
0
10
-41.579372060356057
20
-16.292221301358467
30
0
10
-41.715293690977859
20
-16.301463595868327
30
0
10
-41.86426376031379
20
-16.301463595868327
30
0
0
LINE
5
105
100
AcDbEntity
8
0
100
AcDbLine
10
-40.864263760313797
20
-15.301463595868327
30
0
11
-40.864263760313797
21
-13.301463595868325
31
0
0
LINE
5
106
100
AcDbEntity
8
0
100
AcDbLine
10
-40.864263760313797
20
-13.301463595868325
30
0
11
-38.364263760313797
21
-13.301463595868327
31
0
0
LINE
5
107
100
AcDbEntity
8
0
100
AcDbLine
10
-38.364263760313797
20
-13.301463595868327
30
0
11
-38.364263760313818
21
16.698536404131673
31
0
0
LINE
5
108
100
AcDbEntity
8
0
100
AcDbLine
10
-38.364263760313818
20
16.698536404131673
30
0
11
-40.864263760313818
21
16.698536404131673
31
0
0
LINE
5
109
100
AcDbEntity
8
0
100
AcDbLine
10
-40.864263760313818
20
16.698536404131673
30
0
11
-40.864263760313818
21
18.69853640413168
31
0
0
ARC
5
110
100
AcDbEntity
8
0
100
AcDbCircle
10
-41.864263760313811
20
18.69853640413168
30
0
40
0.99999999999999645
210
0
220
-0
230
1
100
AcDbArc
50
0
51
90
0
LINE
5
111
100
AcDbEntity
8
0
100
AcDbLine
10
-48.364263760313797
20
16.698536404131673
30
0
11
-48.364263760313797
21
-13.301463595868325
31
0
0
LINE
5
112
100
AcDbEntity
8
0
100
AcDbLine
10
-41.864263760313811
20
19.698536404131673
30
0
11
-44.864263760313818
21
19.698536404131676
31
0
0
LINE
5
113
100
AcDbEntity
8
0
100
AcDbLine
10
-45.864263760313825
20
18.69853640413168
30
0
11
-45.864263760313825
21
16.698536404131673
31
0
0
LINE
5
114
100
AcDbEntity
8
0
100
AcDbLine
10
-45.864263760313825
20
16.698536404131673
30
0
11
-48.364263760313797
21
16.698536404131673
31
0
0
ARC
5
115
100
AcDbEntity
8
0
100
AcDbCircle
10
-44.864263760313818
20
18.69853640413168
30
0
40
1.0000000000000009
210
0
220
-0
230
1
100
AcDbArc
50
90
51
180
0
CIRCLE
5
116
100
AcDbEntity
8
0
100
AcDbCircle
10
-43.364263760313797
20
-10.801463595868332
30
0
40
1.4999999999999949
210
0
220
-0
230
1
0
CIRCLE
5
117
100
AcDbEntity
8
0
100
AcDbCircle
10
-43.364263760313797
20
6.4985364041316549
30
0
40
1.4999999999999949
210
0
220
-0
230
1
0
ENDSEC
0
SECTION
2
OBJECTS
0
DICTIONARY
5
C
100
AcDbDictionary
3
ACAD_GROUP
350
D
3
ACAD_MLINESTYLE
350
17
0
DICTIONARY
5
D
100
AcDbDictionary
0
DICTIONARY
5
1A
330
C
100
AcDbDictionary
0
DICTIONARY
5
17
100
AcDbDictionary
0
ENDSEC
0
EOF
